Четверг, 19.04.2018, 15:43Главная | Регистрация | Вход

Мини-чат

200

Наш опрос

Сколько вам лет?
Всего ответов: 173

Статистика

Форма входа

Поиск

Друзья сайта

Король и Шут - Форум
[ Новые сообщения · Участники · Правила форума · Поиск · RSS ]
  • Страница 1 из 1
  • 1
Форум » "Музыкальное искусство" » Табы к песням » Король и Шут
Король и Шут
GreandДата: Среда, 17.03.2010, 07:44 | Сообщение # 1
Хозяин
Группа: Высшые магистры
Медали:
За создание сайта За 15 постов За 1500 Постов
Сообщений: 94
Награды: 1
Репутация: 1
Статус: Offline
Лесник

Вступление:
2 раза

E---------------------3-1---3-1--33—11—00--------------
H---1-3-5---1-3-5---1------1-------------33----13---13-
G—2-------2------- -2------2------------------04---04---
D------------------------------------------------------
A------------------------------------------- -----------
E------------------------------------------------------

Замученный дорогой, я выбился из сил
E--------------------------------
H-----1------1-----1-1—3-5-3-----
G---2--2-2-2--2---2--------------
D----------------------------- ---
A--------------------------------
E--------------------------------

И в доме лесника я ночлега попросил
E--------------------------------
H-----1------1-----1-1—3-5-3-----
G---2--2-2-2--2---2--------------
D------------------------ --------
A--------------------------------
E--------------------------------

С улыбкой добродушной старик меня пустил
E------------------------------
H-----1------1------1-1—3-5-3--
G---2--2-2-2--2---2------------
D------------------------------
A ------------------------------
E------------------------------

И жестом дружелюбным на ужин пригласил
E------------------------------
H-----1------1------1---1------
G---2—-2-2-2--2---2--22--2-----
D----------------------------- -
A------------------------------
E------------------------------

ПРИПЕВ:

Будь как дома путник, я ни в чем ни откажу , я ни в чем ни откажу , я ни в чем ни откажу!
E------------1-3-1-1-1-3-------1-1-1-3--------1-1-1-3-1
H—1-1-1-1-1-1-----------1---1-4-------1----1-4---------
G---------------- --------------------------------------
D------------------------------------------------------
A------------------------------------------ ------------
E------------------------------------------------------

Множество историй коль желаешь расскажу, коль желаешь расскажу, коль желаешь расскажу!
E------------1-3-1-1-1-3-------1-1-1-3--------1-1-1-3-1
H—1-1-1-1-1-1-----------1---1-4-------1----1-4---------
G-------------- ----------------------------------------
D------------------------------------------------------
A---------------------------------------- --------------
E------------------------------------------------------

 
GreandДата: Понедельник, 31.05.2010, 22:13 | Сообщение # 2
Хозяин
Группа: Высшые магистры
Медали:
За создание сайта За 15 постов За 1500 Постов
Сообщений: 94
Награды: 1
Репутация: 1
Статус: Offline
КиШ - Лесник (Другая тональность)

Am F
|
E|-----------------------------------------------------------------| |
H|-------------5-5-------------5-5---------8-8-6-6---------8-8-6-6-| |
G|-----5-5-7-7---------5-5-7-7---------5-5-------------5-5---------| |
D|-7-7-------------7-7-------------7-7-------------7-7-------------| |
A|-----------------------------------------------------------------| |
E|-----------------------------------------------------------------| | | x2

Dm G |
E|-----------------------------------------------------------------| |
H|-8-8-6-6-5-5-----8-8-6-6-5-5-------------------------------------| |
G|-------------7-7-------------7-7-----4-4-5-5-7-7-----4-4-5-5-7-7-| |
D|---------------------------------5-5-------------5-5-------------| |
A|-----------------------------------------------------------------| |
E|-----------------------------------------------------------------| |

Am F |
E|-----------------------------------------------------------------| |
H|-------------5---------------5-----------8---6-----------8---6---| |
G|-----5---7------------5--7-----------5----------------5----------| |
D|-7---------------7--7------------7---------------7--7------------| |
A|-----------------------------------------------------------------| |
E|-----------------------------------------------------------------| | | x2

Dm G |
E|-----------------------------------------------------------------| |
H|-8---6---5-------8--8-6--5---------------------------------------| |
G|-------------7---------------7-------4---5---7--------4--5---7---| |
D|---------------------------------5---------------5--5------------| |
A|-----------------------------------------------------------------| |
E|-----------------------------------------------------------------| |

 
Форум » "Музыкальное искусство" » Табы к песням » Король и Шут
  • Страница 1 из 1
  • 1
Поиск:

Copyright MyCorp © 2018 |