Четверг, 16.08.2018, 00:36Главная | Регистрация | Вход

Мини-чат

200

Наш опрос

Сколько вам лет?
Всего ответов: 173

Статистика

Форма входа

Поиск

Друзья сайта

Фактор 2 - Форум
[ Новые сообщения · Участники · Правила форума · Поиск · RSS ]
  • Страница 1 из 1
  • 1
Форум » "Музыкальное искусство" » Табы к песням » Фактор 2
Фактор 2
GreandДата: Среда, 17.03.2010, 07:48 | Сообщение # 1
Хозяин
Группа: Высшые магистры
Медали:
За создание сайта За 15 постов За 1500 Постов
Сообщений: 94
Награды: 1
Репутация: 1
Статус: Offline
Весна

Вступление:

Hm A G F#7
E||-----------------|---------------|-----------------|--------------------|
H||---------5-------|---------------|-----------------|-- ------------------|
G||-4---4-6---7-6-4-|---------------|-----------------|--------------------| \
D||---4-------------|-7-------------|-5---5---5---7-5-|-4h5p4-2-4h5p4-2-4--| / 2 раза
A||-----------------|------7-4------|---5---5---------|--------------------|
E||-----------------|----------5----|-----------------|- -------------------|

Hm A G F#7
|-------------9-10-11-|-12-10-9----9-------------|----------------------|--------------------------------------------|
|-12----11-12-- -------|---------12---12-10-12-10-|----------10-12-10----|---------------------------------------9-11-|
|---------------------|------------ --------------|-12----12----------12-|-11h12p11-9-11h12p11-9-11---------9-11------|
|---------------------|--------------------------|----- -----------------|--------------------------9-11-12-----------|
|---------------------|--------------------------|----------------------|-- ------------------------------------------|
|---------------------|--------------------------|----------------------|---------------------- ----------------------|


Hm A G F#7
|----------------10-9-10-9--|---12----|-10-9-7-10-9-7-10-9-7-10-9-7-10-9-7-|-12-10-9-----------------------------------||
|-12--12-10- 12--------------|-тремоло-|------------------------------------|---------12-11-----------------------------||
|---------------------------| ---------|------------------------------------|---------------12-11-9---------------------||
|---------------------------|---------|------- -----------------------------|-----------------------12-11-9-8-----------||
|---------------------------|---------|------------------------ ------------|---------------------------------10-9----9-||
|---------------------------|---------|------------------------------------|---- ----------------------------------12---||

Hm
Пепел падает на пальцы, обжигая плоть мою
Hm
Ты торопишься на танцы, где тебя давно я жду
Em A
Под открытым небом пляшет озорная молодежь
Em A Hm
На танцполе все забито не пройдешь

За пультом диджейским пальцы гнет продвинутый ди-джей
Он сейчас немного занят, эй девчонка не робей
Незнакомка рядом трется, я б хотел ее обнять
От греха подальше надо убегать.

Em A
Опять врывается весна, и созрели семена. \
Hm \
Я прошу тебя давай, собирать мой урожай, / 2 раза
Орудие труда ты получишь без труда, а-а... /

Вот и ты проходишь в юбке уже моего ремня
Лучше б заявилась в шубке, кривоногая моя
Вызывающий наряд твой убивает пацанов
Черезчур похабно, Маша, нету слов

Познакомился намедни в Интернете я с тобой,
Ты мне показалась стройной королевой молодой,
А когда тебя увидел, захотелось мне орать
Надо ноги делать, надо убегать.

Припев

Проигрыш:

Hm A G F#7
E||-----------------|---------------|-----------------|--------------------||
H||-7-5-7-5-7---8-7-|-5-3-5-3-5-----|-3-2-3-2-3---5-3-|- 2h3p2-0-2----------||
G||-----------------|---------------|-----------------|------------4-3-----||
D||-----------------|---------------|- ----------------|----------------5-4-||
A||-----------------|---------------|-----------------|--------------------||
E||----------------- |---------------|-----------------|--------------------||

Припев

 
Форум » "Музыкальное искусство" » Табы к песням » Фактор 2
  • Страница 1 из 1
  • 1
Поиск:

Copyright MyCorp © 2018 |